música
Buscador

Acorde de 02. ¿Quién Mato a Marilyn? - Los Prisioneros

Letra de 02. ¿Quién Mato a Marilyn?

INTRO

Entra la bateria y el bajo en LA (13 veces)

Luego la guitarra y el bajo hacen la misma figura:



-------------------------------------------------3-3-5-5-3-3-5-5

-----------------5-5-7-7-5-5-7-7-----2-2-3-3-5-5----------------

-0-0-4-4-5-5-7-7-----------------3-3----------------------------

----------------------------------------------------------------



------------------7-7-5-5---------------------------------------

------4-4-5-5-7-7---------7-7-5-5-----------------6-6-9-9-7-7-6-

-5-5----------------------------------6-6-7-7-9-9---------------

----------------------------------7-7---------------------------



Versos: (Se hace 2 veces antes del coro)



LA DO#

------------------------------------------------

------------------------------------------------

-------------------------4-4-4-4-4-4-4-4-4-4-4-4

-5-5-5-5-5-5-5-5-5-5-5-5------------------------



RE SI mi

------------------------------------------------------

------------------------------------------------------

-5-5-5-5-5-5-5-5-5-5-5-5-----------------7-7-7-7-7-7-7

-------------------------7-7-7-7-7-7-7-7--------------





Coros:



RE LA

--------------------------------------------

--------------------------------------------

-5-5-5-5-5-5-5-5-5-5-5-5-5-5-5-5------------ (dos veces)

---------------------------------5--5--5--5-



RE (slide)mi

---------------------------------------------------------

---------------------------------------------------------

-5-5-5-5-5-5-5-5-5-5-5-5-5-5-5-5-5/7-7-7-7-7-7-7-7-7-7-7-

---------------------------------------------------------



Antes del solo de guitarra entra el bajo y la bateria igual

al principio (bajo en LA 13 veces).



Durante el solo se repiten las notas de los versos:

(LA/DO#/RE/SI/mi)



Letra

LA

Quiero saber quién fue

DO#

quiero saber por qué sucedió

RE SI mi

Oh oh dime Marilyn dime quién quién te mató



LA

Eras tan bella una hermosa mujer

DO#

https://www.coveralia.com/acordes/02---quien-mato-a-marilyn--los-prisioneros.php

Quiero saber quién fue

RE SI mi

Dime si fue el presidente dime si fue algún agente



RE

¿Quién mató a Marilyn?

LA

La prensa fue o la radio tal vez

RE

¿Quién mató a Marilyn?

LA

La televisión o el ratón Mickey

RE

¿Quién mató a Marilyn?

mi

Dime dime dime quien fue



LA

Dicen que fue un comunista

DO#

Dicen que fue un sandinista

RE

Dicen que fue un extremista

SI mi

¿O tal vez algún alpinista?

LA

Dicen que fue tu doctor

DO#

Dicen que fue tu amigo íntimo

RE

Dicen que fui yo ¡oh no!

SI mi

¡Dime quién, quién te mató!

¿Quién mató a Marilyn?... (El coro ya saben como es)



(En esta parte que sigue se hace repite el intro dos veces)



Busco en los diarios la explicación

Pero la prensa me deja peor

Oh dime Marilyn dime quién? quién te mató

En la tele sonriéndome estás

Miis nervios están por estallar

Dime si fue Rodrigo Beltrán

O tal vez un Sacsahuaman?



¿Quién mató a Marilyn?... (CORO)



EL FINAL ES MAS O MENOS ASI



LA RE mi

-----------------------

-----------------------

------------5-5-5-7-7-7

-5-5-5-5-5-------------

OOH Marilyn, Marilyn (3 veces)



Termina igual igual que el principio (13 veces en LA junto con

la bateria), eso por parte del bajo, la guitarra hace un LA.



Discos en los que aparece este acorde: Atlas De La Musica Chilena

El acorde de 02. ¿Quién Mato a Marilyn? de Los Prisioneros es una versión de la canción original realizada por colaboradores/usuarios de Coveralia.

¿Has encontrado algún error en esta página? Envíanos tu corrección del acorde