música
Buscador

Acorde de Chiquitita (Español) - Abba

Letra de Chiquitita (Español)

E ---------------------------------------------------------------------- 

B ---2---3---5---7---9---10--10/12~--10^12^10---9---7---9---10---7---5--

G --2---4---6---7---9---11---11/13~--11--------9---7---9---11---7---4---

D -----------------------------------------------------------------6----

A ----------------------------------------------------------------------

E ----------------------------------------------------------------------



A Asus4 A



Verse 1:



Asus4 A Asus4 A

Chiquitita, dime porqué

E

tu dolor hoy te encadena.

E D E E7 A Asus4 A

E-e-e-e-n tus ojos hay una sombra de gran pena.

Asus4 A Asus4 A

No quisiera verte así,

Asus4 C#min C#add9 C#min C#add9

aunque quieras disimularlo.

E D E E7 A Asus4 A

Si-i-i-i es que tan triste estás, para qué quieres callarlo.



Verse 2:



Chiquitita, dímelo tú,

en mi hombro aquí llorando.

Cuenta conmigo ya, para así seguir hablando.

Tan segura te conocí,

y ahora tu ala quebrada.

Déjamela arreglar, yo la quiero ver curada.

D

Chiquitita sabes muy bien

A

que las penan vienen y van y desaparecen.

E D E

Otra vez vas a bailar, y serás feliz,

E7 A

como flores que florecen.

D

Chiquitita, no hay que llorar,

A

las estrellas brillan por ti allá en lo alto.

https://www.coveralia.com/acordes/chiquitita--espanol--abba.php

E D E

Quiero verte sonreír, para compartir,

E7 A

tu alegría, chiquitita.

ocultar esta pestaña E ---------------------------

B ---2---3---5---7---9---10--

G --2---4---6---7---9---11---

D ---------------------------

A ---------------------------

E ---------------------------

D E D E E7 A

Otra vez quiero compartir tu alegría, chiquitita.



Repeat Verse 1:



Repeat Chorus:



... E D E

Quiero verte sonreír, para compartir,

E7 A

tu alegría, chiquitita.

ocultar esta pestaña E ---------------------------

B ---2---3---5---7---9---10--

G --2---4---6---7---9---11---

D ---------------------------

A ---------------------------

E ---------------------------

D E D E E7 A

Otra vez quiero compartir tu alegría, chiquitita.

ocultar esta pestaña E ---------------------------

B ---2---3---5---7---9---10--

G --2---4---6---7---9---11---

D ---------------------------

A ---------------------------

E ---------------------------

D E D E E7 D A

Otra vez quiero compartir tu alegría, chiquitita.



Final:



D5(XX0234) D*(XX0235) D5 D* Bm/D(XX0777) D* A7+*(X0224) A*(X02225)

A A A9 A A4 A6 A V-0-2-4 ...

Letra subida por: Anónimo

Discos en los que aparece este acorde: Todo Abba (Sus Grandes Exitos) , Gracias Por La Musica

El acorde de Chiquitita (Español) de Abba es una versión de la canción original realizada por colaboradores/usuarios de Coveralia.

¿Has encontrado algún error en esta página? Envíanos tu corrección del acorde