música
Buscador

Acorde de Dance With The Devil - Breaking Benjamin

Letra de Dance With The Devil

Capo on 1st fret 



Intro riff:



E#|-------------------|

B#|-------------------|

G#|-------------------|

D#|------0---0---0----|

A#|--3h5---5---5---5--|

E#|-------------------| 2x





Intro riff II:



E#|--------------------------------------|

B#|--------------------------------------|

G#|--------------------------5-----------|

D#|--7-----7-----7--5--7--5--3--7--5--8--|

A#|--5-----5-----5--3--5--3-----5--3--6--|

E#|--------------------------------------| 3x





E#|--------------------------------------|

B#|--------------------------------------|

G#|--------------------5--5--5-----------|

D#|--7-----7-----7--5--3--3--3--8--8--8--|

A#|--5-----5-----5--3-----------6--6--6--|

E#|--------------------------------------|











Dm Em F Am Bb Am

Here I stand, helpless and left for dead



RIFF



Dm Em F Am Bb

Close your eyes, so many days go by



Am Dm Em F

Easy to find what's wrong



Am Bb Am

Harder to find what's right





Dm

I believe in you

Bb

I can show you that I can see right through

Dm

All your empty lies, I won't stay long

Bb

In this world so wrong







Dm C

Say goodbye,

Bb Dm C

As we dance with the devil tonight

Bb Dm C

Don't you dare look at him in the eye

Bb D C Bb

As we dance with the devil tonight





Intro riff II, first part only once





Dm Bb

Trembling, crawling across my skin

Dm

Feeling your cold, dead eyes

https://www.coveralia.com/acordes/dance-with-the-devil-breaking-benjamin.php

Bb

Stealing the life of mine





Dm

I believe in you

Bb

I can show you that I can see right through

Dm

All your empty lies, I won't last long

Bb

In this world so wrong







Dm C

Say goodbye,

Bb Dm C

As we dance with the devil tonight

Bb Dm C

Don't you dare look at him in the eye

Bb D C Bb

As we dance with the devil tonight





Am Bb

Hold on

Am Bb

Hold on





SOLO



Dm C Bb

Bb C Dm

Dm F Bb

Bb C Dm







Dm C

Say goodbye,

Bb Dm C

As we dance with the devil tonight

Bb Dm C

Don't you dare look at him in the eye

Bb D C Bb

As we dance with the devil tonight





Am Bb

Hold on

Am Bb C

Hold on





Outro: Dm Bb (2x)





Outro Riff:



E#|--------5--6--5-----------5--6--5-----|

B#|-----6-----------6-----6-----------6--|

G#|--7-----------------7-----------------|

D#|--0-----------------0-----------------|

A#|--------------------------------------|

E#|--------------------------------------|





E#|--------5--6--5-----------5--6--5-----|

B#|-----6-----------6-----6-----------6--|

G#|--7-----------------7-----------------|

D#|--------------------------------------|

A#|--------------------------------------|

E#|--6-----------------6-----------------|

Letra subida por: Anónimo

Discos en los que aparece este acorde: Phobia

El acorde de Dance With The Devil de Breaking Benjamin es una versión de la canción original realizada por colaboradores/usuarios de Coveralia.

¿Has encontrado algún error en esta página? Envíanos tu corrección del acorde