música
Buscador

Acorde de Disco Medley: I Will Survive / Funky Town / Last Dance / The Hustle / - Selena

Letra de Disco Medley: I Will Survive / Funky Town / Last Dance / The Hustle /

Am

At first I was afraid

Dm

I was petrified

G

I kept thinking I could never live

C

Without you by my side

F

But then I spent so many nights



Just thinking how you did me wrong

E4

I grew stronger

E7

I learned how to get along.



Am

And so you're back

Dm

from outer space.

G

I just walked in to find you here.

C

Without that look upon your face.

F

I should have change that stupied lock



I should have made you leave your key

E4

If I had known for just one second

E7

You'd be back to brother me.



Am

Oh now go

Dm

Walk out the door.

G

Just turn around now.

C

You're not welcome anymore.

F B°

Weren't you the one who tried to break me with desire?

E4

Did you think I'd crumble?

E7

Did you think I'd lay down and die?



Am

Oh not I.

Dm

I will survive.Am

At first I was afraid

Dm

I was petrified

G

I kept thinking I could never live

C

Without you by my side

F

But then I spent so many nights



Just thinking how you did me wrong

E4

I grew stronger

E7

I learned how to get along.



Am

And so you're back

Dm

from outer space.

G

I just walked in to find you here.

C

Without that look upon your face.

F

I should have change that stupied lock



I should have made you leave your key

E4

If I had known for just one second

E7

You'd be back to brother me.



Am

Oh now go

Dm

Walk out the door.

G

Just turn around now.

C

You're not welcome anymore.

F B°

Weren't you the one who tried to break me with desire?

E4

Did you think I'd crumble?

E7

Did you think I'd lay down and die?



Am

Oh not I.

Dm

I will survive.





e|---------------------------------------------------------------------------|

B|---------------------------------------------6-5---------------------6-5---|

G|-------------------------------5-5-3-5-----5-----5-----5-5-3-5-----5-----5-|

D|---------------------------------------5-5---------------------5-5---------|

A|---------------------------------------------------------------------------|

E|---------------------------------------------------------------------------|





e|---------------------------------------------------------------------------|

B|---------------------------------------------------------------------6-5---|

G|-------------------------------------------------------5-5-3-5-----5-----5-|

D|---------------------------------------------------------------5-5---------|

A|---------------------------------------------------------------------------|

E|---------------------------------------------------------------------------|

Gotta make a move to a town that's right for me.





e|---------------------------------------------------------------------------|

B|---------------------------------------------------------------------6-5---|

G|-------------------------------------------------------5-5-3-5-----5-----5-|

D|---------------------------------------------------------------5-5---------|

A|---------------------------------------------------------------------------|

E|---------------------------------------------------------------------------|

https://www.coveralia.com/acordes/disco-medley--i-will-survive---funky-town---last-dance---the-hustle---selena.php

Town to keep me movin', keep me groovin' with some energy.





e|---------------------------------------------------------------------------|

B|---------------------------------------------------------------------------|

G|---------------------------------------------------------------------5-4---|

D|-------------------------------------------------------5-5-3-5-----5-----5-|

A|---------------------------------------------------------------5-5---------|

E|---------------------------------------------------------------------------|

Well, (I talk about it) (x 4).





e|---------------------------------------------------------------------------|

B|---------------------------------------------------------------------6-5---|

G|-------------------------------------------------------5-5-3-5-----5-----5-|

D|---------------------------------------------------------------5-5---------|

A|---------------------------------------------------------------------------|

E|---------------------------------------------------------------------------|

Talk about, talk about, talk about, movin'.





e|-------------------------------------------------|

B|----------------------6-5------------------------|

G|--------5-5-3-5-----5-----5----------------------|

D|----------------5-5------------------------------|

A|-------------------------------------------------|

E|-------------------------------------------------|

Gotta move on.





e|-------------------------------------------------|

B|----------------------6-5------------------------|

G|--------5-5-3-5-----5-----5----------------------|

D|----------------5-5------------------------------|

A|-------------------------------------------------|

E|-------------------------------------------------|

Gotta move on.





e|-------------------------------------------------|

B|----------------------6-5------------------------|

G|--------5-5-3-5-----5-----5----------------------|

D|----------------5-5------------------------------|

A|-------------------------------------------------|

E|-------------------------------------------------|

Gotta move on.



e|-------------------------------------------------|

B|-------------------------------------------------|

G|-------------------------------------------------|

D|-------------------------------------------------|

A|-------------------------------------------------|

E|-------------------------------------------------|

(Bass run.)



Ebmaj7 Bb+ Ebmaj7 Bb+

Oooooohhh… Oooooohhh…



Ebmaj7 Fm/Eb Ebmaj7 Bb+

Last dance, Last dance for love

Ebmaj7 Fm/Eb Ebmaj7 Gdim/Eb

Yes, it's my last chance For romance tonight

Abmaj7 Bb/Ab Gm7 Cm7

I need you by me, beside me, to guide me

Abmaj7 Bb/Ab G7 Cm

To hold me, to scold me, cause when I'm bad, I'm so, so bad



Ebmaj7 Fm/Eb

So let's dance the last dance

Ebmaj7 Fm/Eb

Let's dance the last dance

Ebmaj7 Fm/Eb Cm

Let's dance this last dance tonight



Last dance, Last dance for love

Yes, it's my last chance For romance tonight

I need you by me, beside me, to guide me

To hold me, to scold me, cause when I'm bad

I'm so, so bad



So let's dance the last dance

Let's dance the last dance

Let's dance the last dance tonight



Oh-ho, I need you by me, beside me, to guide me

To hold me, to scold me, cause when I'm bad

I'm so, so bad



So, come on baby, dance that dance

Come on baby, dance that dance

Cm Cm/B Cm/Bb Cm/A Ab Bb Eb

Come on baby, let's dance tonight



e|--5--3--5--3--5--5-3-5--8--1--0--1--0--1--1-0-1--3-------------------------|

B|---------------------------------------------------------------------------|

G|---------------------------------------------------------------------------|

D|------------------------repeat-twice---------------------------------------|

A|---------------------------------------------------------------------------|

E|---------------------------------------------------------------------------|



e|--8--10--8--10--8--8-10--8--10--8--10--8--10--8--8-10--8--10--------------------|

B|--------------------------------------------------------------------------------|

G|--------------------------------------------------------------------------------|

D|-----------------------repeat-twice---------------------------------------------|

A|------------------and-end-with-a-C----------------------------------------------|

E|--------------------------------------------------------------------------------|



Em7 A11 Dmaj9

Someone found a letter you wrote me, on the radio

Em7 A11 Dmaj9

and they told the world just how you felt

Gmaj7 Cmaj7

it must have fallen out of a hole in your old brown overcoat

Am7 D

they never said your name but I knew just who they meant.

Em7 A11 Dmaj9

Oh, I was so surprised and shocked, and I wonder too

Ebdim Em7 A11 Dmaj9

if by chance you heard it for yourself

Gmaj7 Cmaj7

I never told a soul just how I've been feeling over you

Am7 D

but they said it really loud they said it on the air

Em7 Am7 Bm7 Em7

Am7 Bm7

on the radio whoa oh oh on the radio whoa oh oh

Em7 Am7 Bm7 Em7

Am7 Bm7

on the radio whoa oh oh on the radio whoa oh oh now, now

Discos en los que aparece este acorde: Selena Live, The Last Concert

El acorde de Disco Medley: I Will Survive / Funky Town / Last Dance / The Hustle / de Selena es una versión de la canción original realizada por colaboradores/usuarios de Coveralia.

¿Has encontrado algún error en esta página? Envíanos tu corrección del acorde