música
Buscador

Acorde de El Baile De Los Que Sobran - Los Prisioneros

Letra de El Baile De Los Que Sobran

EL BAILE DE LOS QUE SOBRAN



INTRO: C–G-C-F



VERSO 1:

C G C F

Es otra noche más de caminar

C G C F

es otro fin de mes sin novedad



C-G-C-F



VERSO 2:

C G C F

mis amigos se quedaron igual que tu

C G

este año se les acabaron

C F

los juegos los doce juegos



CORO 1:

C G

Únanse al baile de los que sobran

C

nadie nos va echar de mas

F F

nadie nos quiso ayudar de verdad



VERSO 3:

C G

Nos dijeron cuando chicos

C

jueguen a estudiar

F

los hombres son hermanos

C G

y juntos deben trabajar

C F

oías los consejos los ojos en el profesor

C G

había tanto sol sobre las cabezas

C

y no fue tan verdad

G

porque esos juegos al final

C

terminaron para otros con laureles y futuros

F

y dejaron a mis amigos pateando piedras



CORO 2:

C G

Únete al baile de los que sobran

C

nadie nos va echar de mas

F

nadie nos quiso ayudar de verdad



PUENTE:

Am G

Hey conozco unos cuentos

F D E

sobre el futuro

Am G

hey, el tiempo en que los aprendí

F D E

fue el más seguro



SOLO: C-G-C-F



VERSO 4:

C G

Bajo los zapatos barro mas cemento

C

el futuro no es ninguno

F

de los prometidos en los doce juegos

C

a otros le enseñaron

G

secretos que a ti no

C

a otros dieron de verdad

F

esa cosa llamada educación

C

ellos pedían esfuerzo

G

ellos pedían dedicación

C

y para que para terminar bailando

F

y pateando piedras



REPETIR CORO 2:



PUENTE 2:

C G

la la la la la la la la

C F

la la la la la la la la



REPETIR PUENTE:



REPETIR CORO 2:



REPETIR PUENTE 2(IDEFINIDAMENTE):

Esta ultima parte va fondeada con el Coro 2 y los riffs que lo acompañan





https://www.coveralia.com/acordes/el-baile-de-los-que-sobran-los-prisioneros.php



Riffs:(Las partes del teclado las he adaptado a guitarra es 100% correcto)



DESPUES DEL 1er VERSO

e|--0-------00-----------------|

B|1—-1~--1-----1-3-1-----------|

G|-0-------0---------0h2—2h4p2-|

D|-----------------------------|

A|-----------------------------|

E|-----------------------------|



CORO 1:

e|-----------------------------|

B|-----55555--55555-55555-5555-|

G|-----55555--55555-55555-5555-|

D|-----------------------------|

A|-----------------------------|

E|-----------------------------|

Únanse al baile...



e|-----------------------------|

B|-----------------------------|

G|–---44444--44444-44444-4444--|

D|----55555--55555-55555-5555--|

A|-----------------------------|

E|-----------------------------|

De los que sobran...



e|-----------------------------|

B|–----55555--55555-55555-5555-|

G|-----55555--55555-55555-5555-|

D|-----------------------------|

A|-----------------------------|

E|-----------------------------|

Nadie nos va a echar de más...



e|-----------------------------|

B|-----------------------------|

G|--------22222-22222----------|

D|--------33333-33333-----3-3--|

A|------------------------3-3--|

E|------------------------1-1--|

Nadie nos quiso ayudar de verdad...



CORO 2:

e|-----------------------------|

B|-----55555--55555-55555-5555-|

G|-----55555--55555-55555-5555-|

D|-----------------------------|

A|-----------------------------|

E|-----------------------------|

Únete al baile...



e|-----------------------------|

B|-----------------------------|

G|–---44444--44444-44444-4444--|

D|----55555--55555-55555-5555--|

A|-----------------------------|

E|-----------------------------|

De los que sobran...



e|-----------------------------|

B|–----55555--55555-55555-5555-|

G|-----55555--55555-55555-5555-|

D|-----------------------------|

A|-----------------------------|

E|-----------------------------|

Nadie nos va a echar de más...



e|-----------------------------|

B|-----------------------------|

G|----22222--22222-22222-2222--|

D|----33333--33333-33333-3333--|

A|-----------------------------|

E|-----------------------------|

Nadie nos quiso ayudar de verdad...

NOTA:

Estos riffs acompañan el puente 2 y la última parte del verso 4



PUENTE

e|---------------------------------------------|

B|---------------------------------------------|

G|--------14----------12--------10-------7/9---|

D|-14-14-------12-12------10-10------7-7-------|

A|------12----------10----------8-------5------|

E|---------------------------------------------|

Am G F D E

Esto se repite dos veces cada vez que tocas el puente



SOLO(después del puente)



e|---------1-0-----------3-1-0----1~------0|

b|1-1-1-1-----3~----------------3~---3-1---|

G|--------------3-3-3-3--------------------|

D|-----------------------------------------|

A|-----------------------------------------|

E|-----------------------------------------|

Este solo se repite dos veces.



FINAL

e|----------1---1-1----|

B|-2-2-1-2-4-------4-2-|

G|---------------------|

D|---------------------|

A|---------------------|

E|---------------------|

(Esto se repite indefinidamente)





El acorde de El Baile De Los Que Sobran de Los Prisioneros es una versión de la canción original realizada por colaboradores/usuarios de Coveralia.

¿Has encontrado algún error en esta página? Envíanos tu corrección del acorde