música
Buscador

Acorde de Going To Acapulco - Bob Dylan

Letra de Going To Acapulco

Capo II 



G D

I'm going down to Rose Marie's

C G

She never does me wrong.

G D

She puts it to me plain as day

C G

And gives it to me for a song.

G G7

It's a wicked life but what the hell

C Am

and everybody's got to eat

G D

And I'm just the same as anyone else

C Am

When it comes to scratching for my meals *)



G C

Goin' to Acapulco

G F

Goin' on the run.

G C

Goin' down to see soft gut

G Am

Goin' to have some fun.

n.c.

Yeah



|--------------------------|-3-----------------------|

|--------3-----3-----3-----|-------5-----3-----------|

|-/4---------------4-------|-------------------4-----|

|--------------------------|-------------------------|

|--------------------------|-------------------------|

|--------------------------|-------------------------|

G

|--------------------------|--------------------------|---

|--3-----3-----------------|--------------------------|---

|2h4---2h4----\2-----0-----|-0-----h2---0-------------|---

https://www.coveralia.com/acordes/going-to-acapulco-bob-dylan.php

|------------------------2-|-----2--------2---0-------|---

|--------------------------|--------------------2-----|---

|--------------------------|--------------------------|-3-



G

Goin' to have some fun.



Now, whenever I get up

And can't find what I need,

I just make it down to Rose Marie's

and get something quick to eat.

It's not a bad way to make a living

And I ain't complainin' none.

For I can blow my plum and drink my rum

And then go on home and have my fun



Goin' to Acapulco

Goin' on the run.

Goin' down to see soft gut

Goin' to have some fun.

Yeah

Goin' to have some fun.



Now, if someone offers me a joke

I just say no thanks.

I try to tell it like it is

And keep away from pranks.

Well, everytime, you know, when the well breaks down

I just go pump on it some.

Rose Marie, she likes to go to big places

And just sit there waitin' for me to come.



Goin' to Acapulco

Goin' on the run.

Goin' down to see soft gut

Goin' to have some fun.

Yeah

Goin' to have some fun.

Letra subida por: Anónimo

Discos en los que aparece este acorde: The Basement Tapes

El acorde de Going To Acapulco de Bob Dylan es una versión de la canción original realizada por colaboradores/usuarios de Coveralia.

¿Has encontrado algún error en esta página? Envíanos tu corrección del acorde