música
Buscador

Acorde de Going To Pasalacqua - Green Day

Letra de Going To Pasalacqua



INTRODUÇÃO: Riff #1



1º VERSO:



E D A

Here we go again infatuation touches me just when I thought that it would end

E

Oh, but then again it seems much more than that

D A

But, I'm not sure exactly what you're thinkin'



PRE-REFRÃO:



D A E

Well, I toss and turn all night thinkin' of your ways of affection

D A

But, to find out it's not different at all

D A E A

Well, I throw away my past mistakes and contemplate my future

D5(PM) A

That's when I say... ...what the hey?



REFRÃO:



E F#

Would I last forever? You and I together

D5 D9 D5 A

Hand in hand we run away... ...far away

E F#

I'm in for nasty weather but, I'll take whatever

D5 D9 D5 A | A5(PM)

You can give that comes my way... ...far away



2º VERSO:



E D A | A5(PM)

Here we go again infatuation touches me just when I thought that it would end

E

Oh, but then again it seems much more than that

D A

But, I'm not sure exactly what you're thinkin'



(PRE-REFRÃO)



(REFRÃO)



PONTE:



A4/7 D A4/7 D - 3x | A5 (PM)



https://www.coveralia.com/acordes/going-to-pasalacqua-green-day.php

(PRE-REFRÃO)



REFRÃO 2:



E F#

Would I last forever? You and I together

D5 D9 D5 A

Hand in hand we run away... ...far away

E F#

I'm in for nasty weather but, I'll take whatever

D5 D9 D5 A | Riff #2

You can give that comes my way... ...far away...

____________________________________________________________________________



Riff #1



A5 A

e|-------------------------|

B|------2h3h2h3-2~------2--|

G|--2-------------------2--|

D|--2-------------------2--|

A|--0-------------------0--|

E|-------------------------|



hold.........|



Riff #2



A E F# D5

e|------------------0-0-0-0---0--------------------------------------------

B|--2-2-2-2-2-2-2-2-0-0-0-0---0--0--------------------0-----------3--3--3--

G|--2-2-2-2-2-2-2-2-1-1-1-1--------1--1-1-1-3-3-3-3-3---3----3-3--2--2--2--

D|--2-2-2-2-2-2-2-2-2-2-2-2-----------2-2-2-4-4-4-4-4-----4--4-4--0--0--0--

A|--0-0-0-0-0-0-0-0-2-2-2-2-----------2-2-2-4-4-4-4-4--------4-4-----------

E|------------------0-0-0-0-0---------0-0-0-2-2-2-2-2--------2-2-----------

...far away...



D9 A

------0-----------------------------------|

--3---3---3---3----2---2h3h2h3-2~------2--|

--2---2---2---2----2-------------------2--|

--0---0---0---0----2-------------------2--|

-------------------0-------------------0--|

------------------------------------------|

____________________________________________________________________________



Usar afinação padrão (E A B G D E)





Letra subida por: Anónimo

El acorde de Going To Pasalacqua de Green Day es una versión de la canción original realizada por colaboradores/usuarios de Coveralia.

¿Has encontrado algún error en esta página? Envíanos tu corrección del acorde