música
Buscador

Acorde de I Believe In You (Je Crois en Toi) (Il Divo with Celine Dion) - Il Divo

Letra de I Believe In You (Je Crois en Toi) (Il Divo with Celine Dion)

Introducci0n:



Em C G D Em C G D

e|----------------------------------------------------------------|

B|-5s7---5~~\-------5-5--------/7---5~~-5--5-3-1-3~-0--0h1p0------|

G|------------/5-7------7-----------------------------------2~~---|

D|------------------------7~~-------------------------------------|

A|----------------------------------------------------------------|

E|----------------------------------------------------------------|



Arpeggio goes like this:



Em C G D

e|--------0------|------0------|------3------|------2------|

B|------0---0----|----1---1----|----3---3----|----3---3----|

G|----0-------0--|--0-------0--|--0-------0--|--2-------2--|

D|---------------|-------------|-------------|0------------|

A|---------------|3------------|-------------|-------------|

E|-0-------------|-------------|3------------|-------------|



Em

Lonely

C G D

The path you have chosen

Em C

A restless road

G D

No turning back

Em C

One day you

G D

Will find your light again

Em Bm

Don't you know

C

Don't let go

D

Be strong





A E

Follow your heart

F#m

Let your love

D

lead through the darkness

A

Back to a place

E

you once knew

F#m D

I believe, I believe, I believe

E

In you



A E

Follow your dreams

F#m

Be yourself

D

an angel of kindness

A

There's nothing that

E

you can not do

C# F#m D

I believe, I believe, I believe

E F#m

In you.





Em C

Tout seul

G D

Tu t'en iras tout seul

Em C

Coeur ouvert

G D

A L'univers

Em C

Poursuis ta quete

G D

Sans regarder derriere

Em Bm

N'attends pas

C

Que le jour

D

Se leve





A E

Suis ton etoile

https://www.coveralia.com/acordes/i-believe-in-you--je-crois-en-toi---il-divo-with-celine-dion--il-divo.php

F#m D

Va jusqu'ou ton reve t'emporte

A E

Un jour tu le toucheras

F#m D

Si tu crois si tu crois si tu crois

E A

En toi



E

Suis la lumiere

F#m D

N'eteins pas la flamme que tu portes

A E

Au fond de toi souviens-toi

C# F#m

Que je crois que je crois

D

que je crois

E

En toi



Interludio:

F#m D A E F#m

|------------------------------------------------------------------------|

|-7s9--7\--------------------7s9--7---7----7-5-3--5--2-2h3p2---0~~~~-----|

|---------5---7--9-9--7--------------------------------------------------|

|------------------------7-----------------------------------------------|

|------------------------------------------------------------------------|

|------------------------------------------------------------------------|







A D

Someday I'll find you

A E

Someday you'll find me too

F#m D

And when I hold you close

E

I'll know that is true





B F#

Follow your heart

G#m

Let your love

E

lead through the darkness

B

Back to a place

F#

you once knew

G#m E

I believe, I believe, I believe

F# B

In you



F#

Follow your dreams

G#m

Be yourself

E

an angel of kindness

B

There's nothing that

F#

you can not do

Eb G#m E

I believe, I believe, I believe

F#

In you....



B F#



G#m E

I Believe, I believe, I believe

F# G#m

in you

E F# E B

e|-4h6---4\-----4-4-----------7-6-7-9-7-9h11p9-7----|

B|----------5-7-----7-------------------------------|

G|--------------------------------------------------|

D|--------------------------------------------------|

A|--------------------------------------------------|

E|--------------------------------------------------|



E B

I believe in You







Letra subida por: Anónimo

Discos en los que aparece este acorde: Ancora (Special Edition)

El acorde de I Believe In You (Je Crois en Toi) (Il Divo with Celine Dion) de Il Divo es una versión de la canción original realizada por colaboradores/usuarios de Coveralia.

¿Has encontrado algún error en esta página? Envíanos tu corrección del acorde