música
Buscador

Acorde de Immortality - Seether

Letra de Immortality



Em Dsus2

Vacate is the...



Em Dsus2

Vengeance has no place...



Em Dsus2 Em Dsus2

Cannot find the confort...



Em Dsus2

Artificial...



Em Dsus2

Vessel stabbed next...



Em Dsus2 Em Dsus2

Vulnerable, wisdom...



C Em

A truant...



C Em

A wish to...



C A Asus2 A

But there's a...



Pre Solo(play 2 times)

E----------------------------9-------------|

B---10b---8--------7sb---------------------|

G------------------------------------------| Rythm with

D------------------------------------------| Em and Dsus2

A------------------------------------------|

E------------------------------------------|





Em Dsus2

As privileged as a...



C Em

A Truant finds...



https://www.coveralia.com/acordes/immortality-seether.php

A

Immortality



Em Dsus2

Can't stop...



Em Dsus2

Running in...



Em Dsus2

Coming up a...



Em Dsus2

All good truants



C Em

Stripped and...



C Em

Auctioned...



C Em

And whiskers...



C Em

Truants...



C Em

Cannot...



C A

Some die....



Outro

E-------------------9------------|

B----10s8s7s8--------------------|

G--------------------------------|

D--------------------------------|

A--------------------------------|

E--------------------------------|





Letra subida por: Anónimo

Discos en los que aparece este acorde: One Cold Night

El acorde de Immortality de Seether es una versión de la canción original realizada por colaboradores/usuarios de Coveralia.

¿Has encontrado algún error en esta página? Envíanos tu corrección del acorde