música
Buscador

Acorde de Invisible (Whiiite & Flinch Remix) - Skylar Grey

Letra de Invisible (Whiiite & Flinch Remix)





Eb A-1---- Gm A-1---- Cm A-3---- Ab A-3----|

E-3---- E-3---- E-3---- E-4----|

C-3---- C-2---- C-3---- C-3----|

G-0---- G-0---- G-0---- G-5----|

*Bar the 3rd fret

No Capo



Intro



Eb, Gm, Cm, Ab







Verse

Eb Gm

I take these pills, to make me thin



Cm Ab

I dye my hair, and cut my skin



Eb Gm

I tried everything, to make them see me



Cm Ab

But all they see, Is someone that's not me



Chorus



Eb

Even when I'm walking on a wire



Gm

Even when I set myself on fire



Cm Ab

Why do I always feel invisible, invisible



Eb

Everyday I try to look my best



Gm

Even though inside I'm such a mess



Cm Ab

Why do I always feel invisible, invisible



Verse



Eb Gm

Here inside, my quiet heart



Cm Ab

You cannot hear, my cries for help



Eb Gm

I tried everything, to make them see me



Cm Ab

But everyone, see's what I can't be



Chorus



Eb

Even when I'm walking on a wire



Gm

Even when I set myself on fire



Cm Ab

Why do I always feel invisible, invisible



Eb

Everyday I try to look my best



Gm

Even though inside I'm such a mess



Cm Ab

Why do I always feel invisible, invisible



Bridge



Eb Gm

Sometimes, when I'm alone

https://www.coveralia.com/acordes/invisible--whiiite-y-flinch-remix--skylar-grey.php



Cm

I pretend that I'm a queen



Ab

It's almost believable



Chorus



Eb

Even when I'm walking on a wire



Gm

Even when I set myself on fire



Cm Ab

Why do I always feel invisible, invisible



Eb

Everyday I try to look my best



Gm

Even though inside I'm such a mess



Cm Ab

Why do I always feel invisible, invisible







Ukulele Tab



Intro



---1---1---1---1---1---1---1---1---3---3---3---3---3---3---3---3--|

--3-3-3-3-3-3-3-3-3-3-3-3-3-3-3-3-3-3-3-3-3-3-3-3-4-4-4-4-4-4-4-4-|

-3---3---3---3---2---2---2---2---3---3---3---3---3---3---3---3----|

------------------------------------------------------------------|



Verse



---1---1---1---1---1---1---1---1---3---3---3---3---3---3---3---3---|

--3-3-3-3-3-3-3-3-3-3-3-3-3-3-3-3-3-3-3-3-3-3-3-3-4-4-4-4-4-4-4-4--| x2

-3---3---3---3---2---2---2---2---3---3---3---3---3---3---3---3-----|

-------------------------------------------------------------------|



Chorus*



---1---1---1---1---1---1---1---1---3---3---3---3---3---3---3---3---|

--3-3-3-3-3-3-3-3-3-3-3-3-3-3-3-3-3-3-3-3-3-3-3-3-4-4-4-4-4-4-4-4--| x2

-3---3---3---3---2---2---2---2---3---3---3---3---3---3---3---3-----|

-------------------------------------------------------------------|



Verse



---1---1---1---1---1---1---1---1---3---3---3---3---3---3---3---3---|

--3-3-3-3-3-3-3-3-3-3-3-3-3-3-3-3-3-3-3-3-3-3-3-3-4-4-4-4-4-4-4-4--| x2

-3---3---3---3---2---2---2---2---3---3---3---3---3---3---3---3-----|

-------------------------------------------------------------------|



Chorus



---1---1---1---1---1---1---1---1---3---3---3---3---3---3---3---3---|

--3-3-3-3-3-3-3-3-3-3-3-3-3-3-3-3-3-3-3-3-3-3-3-3-4-4-4-4-4-4-4-4--| x2

-3---3---3---3---2---2---2---2---3---3---3---3---3---3---3---3-----|

-------------------------------------------------------------------|

Bridge



---1---1---1---1---1---1---1---1---3---3---3---3---3---3---3---3--|

--3-3-3-3-3-3-3-3-3-3-3-3-3-3-3-3-3-3-3-3-3-3-3-3-4-4-4-4-4-4-4-4-|

-3---3---3---3---2---2---2---2---3---3---3---3---3---3---3---3----|

------------------------------------------------------------------|



Chorus



---1---1---1---1---1---1---1---1---3---3---3---3---3---3---3---3---|

--3-3-3-3-3-3-3-3-3-3-3-3-3-3-3-3-3-3-3-3-3-3-3-3-4-4-4-4-4-4-4-4--| x2

-3---3---3---3---2---2---2---2---3---3---3---3---3---3---3---3-----|

-------------------------------------------------------------------|







* You can play just the chords during the chorus as well

THE END



Letra subida por: Anónimo

Discos en los que aparece este acorde: Invisible (Remixes) (Ep)

El acorde de Invisible (Whiiite & Flinch Remix) de Skylar Grey es una versión de la canción original realizada por colaboradores/usuarios de Coveralia.

¿Has encontrado algún error en esta página? Envíanos tu corrección del acorde