música
Buscador

Acorde de Ashlee Simpson - Invisible - Bso Bratz

Tuning: Drop D both guitars

Chords used: Drop D only
D5 -  000xxx
G5 -  555xxx
A5 -  777xxx
F#5 - 444xxx


Intro:

Guitar 1:
   D5              Palm mute
e|--------|------------------------------------|
B|--------|------------------------------------|
G|--------|-----6/7------6/7------4/6------4/6-|
D|-0~-----|-0-0-x/x--0-0-x/x--0-0-x/x--0-0-x/x-|
A|-0~-----|-0-0-4/5--0-0-4/5--0-0-2/4--0-0-2/4-|
D|-0~-----|-0-0------0-0------0-0------0-0-----|
                       x2
Guitar 2:
e|-14-14---14h15p14-12--12-12--12h14p12-10-|
B|-15-15---15-------14--14-14--14-------10-|
G|-----------------------------------------|
D|-----------------------------------------|
A|-----------------------------------------|
D|-----------------------------------------|

then

Guitar 2:
       G5               A5
e|------------------------|
B|------------------------|
G|------------------------|
D|-5-5--5-5--5-5--5-5-5/7-|
A|-5-5--5-5--5-5--5-5-5/7-|
D|-5-5--5-5--5-5--5-5-5/7-|

Guitar 2:
e|-2-0--2---|
B|--------3-|
G|----------|
D|----------|
A|----------|
D|----------|


Verse 1: Do Intro patten
D5
  Like a grain on the beach Like a star in the sky
                                     G5                 A5
Far too many to count with the naked eye They won't see you
D5
  Go ahead Walk on by You don't know I'm alive
                                               G5
Maybe one day you'll find You should open your eyes
               A5(hold)
You don't know me


Chorus:
D5                 A5
You're the one who looked right through me
G5
Now you're saying that you knew me
D5     A5    G5
When I was invisible
    D5                 A5
And you're the one who walked right through me
G5
Now you're saying that you knew me
D5     A5    G5
When I was invisible


Verse 2:
D5
  Little things adding up Try so hard not to rush
                                      G5
Giving in, letting go Of the world we know
               A5
They won't see you
D5
  Force it down Lose the taste They all think it's a waste
                                         G5
We don't need to believe every word they say, no
           A5
They don't know me


(Repeat Chorus)


Bridge:
F#5           G5
  It's so easy to be lost
F#5        G5                  A5(hold)
  But maybe you're not lost at all
D5     A5    G5
  Oh-oh oh-oh Do you recognize me?
D5     A5    G5
  Oh-oh oh-oh Do you know who I am?
D5     A5    G5
  Oh-oh oh-oh Do you see me now?
D5       A5     G5(hold)
  Do you see me now?


Guitar 2:
e|-------|
B|-------|
G|-76/7-
D|-xx/x-
A|-54/5-
D|-0/0-


(Repeat Chorus)


Letra subida por: Anónimo

Discos en los que aparece este acorde: Bso Bratz , Ashlee Simpson , Todo Exitos '06

El acorde de Ashlee Simpson - Invisible de Bso Bratz es una versión de la canción original realizada por colaboradores/usuarios de Coveralia.

¿Has encontrado algún error en esta página? Envíanos tu corrección del acorde