Quantcast
música
Buscador

Acorde de Like A Stone (Live) - Audioslave

Letra de Like A Stone (Live)

Intro: 

D|---------------------------3-2------------

A|--3-----5----------2-----3----------------

E|-----5-----3----0------1------------------



A5 G5

On a cobweb, afternoon in a room

E5 F5

full of emptiness

A5 G5

By a freeway I confess

E5 F5

I was lost in the pages

A5 G5

Of a book, full of death

E5 F5

Reading how we'll die alone

A5 G5

And if we're good we'll lay to rest

E5 F5

Anywhere we want to go



A5 G5 E5 F5

In your house I long to be

A5 G5 E5 F5

Room by room patiently

A5 G5

I'll wait for you there

E5 F5

Like a stone

A5 G5

I'll wait for you there

E5 F5

Alone



A5 G5

On my deathbed, I will pray

E5 F5

To the gods and the angels

A5 G5

Like a pagan to anyone

E5 F5

Who will take me to heaven

A5 G5

To a place, I recall

E5 F5

I was there so long ago

A5 G5

The sky was bruised

E5

The wine was bled

F5

And there you led me on



A5 G5 E5 F5

In your house I long to be

A5 G5 E5 F5

Room by room patiently

A5 G5

I'll wait for you there

https://www.coveralia.com/acordes/like-a-stone--live--audioslave.php

E5 F5

Like a stone

A5 G5

I'll wait for you there

G#5 G#5

Alone Alone



ocultar esta pestaña SOLO:

e|--------------------------------------------------------

B|7----9--10----12--10--9--7-----7--9---5---10---12---14--

G|--------------------------------------------------------

D|--------------------------------------------------------

A|--------------------------------------------------------

E|--------------------------------------------------------



e|12----11-------------12----11-------------12----11-------------12----11----------

B|-----------12----9--------------12----9--------------12----9--------------12----9

G|---------------------------------------------------------------------------------

D|---------------------------------------------------------------------------------

A|---------------------------------------------------------------------------------

E|---------------------------------------------------------------------------------



e|0--2--3--5--7--8--10--12--14--15--14--15--14^--

B|-----------------------------------------------

G|-----------------------------------------------

D|-----------------------------------------------

A|-----------------------------------------------

E|-----------------------------------------------



A5 E5

And on I read

G#5 A5

Until the day was gone

F#5

And I sat in regret

G#5 C#5

Of all the things I've done

A5 E5

For all that I've blessed

G#5 A5

And all that I've wronged

F#5

In dreams until my death

G#5 G#5

I will wander on



A5 G5 E5 F5

In your house I long to be

A5 G5 E5 F5

Room by room patiently

A5 G5

I'll wait for you there

E5 F5

Like a stone

A5 G5

I'll wait for you there

G#5 G#5

Alone Alone

Letra subida por: Anónimo

Discos en los que aparece este acorde: Be Yourself (Cd Single)

El acorde de Like A Stone (Live) de Audioslave es una versión de la canción original realizada por colaboradores/usuarios de Coveralia.

¿Has encontrado algún error en esta página? Envíanos tu corrección del acorde