música
Buscador

Acorde de Meet Me In The Morning - Bob Dylan

Letra de Meet Me In The Morning

 E |--3b--0-----------------------| 

B |---------2--4------0--2--4----|

G |------------------------------|

D |------------------------------|

A |------------------------------|

E |------------------------------|



E |---------12--12---------------|

B |--10h12--------------0--2--4--|

G |------------------------------|

D |------------------------------|

A |------------------------------|

E |------------------------------|

https://www.coveralia.com/acordes/meet-me-in-the-morning-bob-dylan.php



(chords)



E A7 E

meet me in the morning, 56 blah blah blah blah

A7 E

meet me in the morning, 56 blah blah blah blah

B7 Bb7 A7

honey we could be in kansas

A7 E

everything?s been darkness since you been gone

Letra subida por: Anónimo

Discos en los que aparece este acorde: Blues , Blood On The Tracks

El acorde de Meet Me In The Morning de Bob Dylan es una versión de la canción original realizada por colaboradores/usuarios de Coveralia.

¿Has encontrado algún error en esta página? Envíanos tu corrección del acorde