música
Buscador

Acorde de More Than You Know (Marcus Schössow Remix) - Axwell Ingrosso

Letra de More Than You Know (Marcus Schössow Remix)

[Intro]



Em C G Am

Em C G





[Chorus]

Em C G

I just need to get it off my chest

Am Em

Yeah, more than you know

C G

Yeah, more than you know

Am Em C G

You should know that baby you're the best

Am Em

Yeah, more than you know

C G Am

Yeah, more than you know





[Verse 1]

Em C G Am

I saw it coming, from miles away

Em C G Am

I better speak up if I got something to say

Em C G Am

'Cause it ain't over, until she sings





Em C G Am





Em C G Am

You had your reasons, you had a few

Em C G Am

But you knew that I would go anywhere for you

Em C G Am

'Cause it ain't over, until she sings





Em C G Am





[Chorus]

Em C G

I just need to get it off my chest

Am Em

Yeah, more than you know

C G

Yeah, more than you know

Am Em C G

You should know that baby you're the best

Am Em

Yeah, more than you know

C G Am

Yeah, more than you know





[Post-Chorus] (Play tab or the chords)



E|--0--2--3--3--2--0-----------------------------------------|

B|--------------------3--0-----1--1--0--0-----1--1--0--0-----|

G|--------------------------0--------------0-----------------| X 2

D|-----------------------------------------------------------|

A|-----------------------------------------------------------|

E|-----------------------------------------------------------|



Em C G Am Em C G

I just...



Em C G Am Em C G

I just...





[Verse 2]

Em C G Am

Your good intentions are sweet and pure

Em C G Am

But they can never tame a fire like yours

Em C G Am

No it ain't over, until she sings





Em C G Am





Em C G Am

Right where you wanted, down on my knees

https://www.coveralia.com/acordes/more-than-you-know--marcus-schossow-remix--axwell-ingrosso.php

Em C G Am

You got me begging, pretty baby set me free

Em C G Am

'Cause it ain't over, until she sings





Em C G Am

(She sings..)





[Pre-Chorus]

Em C

Come a little closer, let me taste your smile

Em D

Until the morning lights

Em C

Ain't no going back the way you look tonight

Em D

I see it in your eyes





[Chorus]

Em C G

I just need to get it off my chest

Am Em

Yeah, more than you know

C G

Yeah, more than you know

Am Em C G

You should know that baby you're the best

Am Em

Yeah, more than you know

C G

Yeah, more than you know



Em C

Yeah, more than you know

G Am

Yeah, more than you know

Em C

Yeah, more than you know

G Am

Yeah, more than you know

Em C

Yeah, more than you know

G Am

Yeah, more than you know

Em C

Yeah, more than you know

G Am

Yeah, more than you know





[Post-Chorus] (Play tab or chords)



E|--0--2--3--3--2--0-----------------------------------------|

B|--------------------3--0-----1--1--0--0-----1--1--0--0-----|

G|--------------------------0--------------0-----------------| X 2

D|-----------------------------------------------------------|

A|-----------------------------------------------------------|

E|-----------------------------------------------------------|





Em C G Am Em C G

I just...



Em C G Am Em C G





[Chorus]

Em C G

I just need to get it off my chest

Am Em

Yeah, more than you know

C G

Yeah, more than you know

Am Em C G

You should know that baby you're the best

Am Em

Yeah, more than you know

C G Am

Yeah, more than you know





[Outro]



Em C G Am

Discos en los que aparece este acorde: More Than You Know (Remixes) (Ep)

El acorde de More Than You Know (Marcus Schössow Remix) de Axwell Ingrosso es una versión de la canción original realizada por colaboradores/usuarios de Coveralia.

¿Has encontrado algún error en esta página? Envíanos tu corrección del acorde