música
Buscador

Acorde de Nicotine - Heffron Drive

Letra de Nicotine

Tuning: Standard




Strumming Pattern: down-down-up-down-up-down-down-up-down-up (next chord).... and so on
F - G - Am - C

e|---------------------------------------------------------------------------|
B|---12h12p13h12p12h13h12p12h13p12-------------------------------------------|
G|---------------------------------------------------------------------------|
D|---------------------------------------------------------------------------|
A|---------------------------------------------------------------------------|
E|---------------------------------------------------------------------------|


(strum only the two strings not all) 

e|--------------10-----------------------------------------------------------|
B|---12---------10----------10---------12----------8-------------------------|
G|---12----------------------9---------12----------7-------------------------|
D|---------------------------------------------------------------------------|
A|---------------------------------------------------------------------------|
E|---------------------------------------------------------------------------|

(Repeat that the whole Vers until the chords come up on the chorus)

(Vers)
Figuring out it's habitual
I hear you calling my name at night
Picking you up's like a ritual
Breathing you in it clears my mind

You often make me feel like I wanna fly
I travel the whole world, but I keep you nearby
Letting you go is impossible, only you can help me to unwind

(chorus)
F                       G
I'm not giving up for nothing, no
                  Am                         C
They tell me I'm dead if I don't leave you alone
Like nicotine
F                      G        
We've got nothing but potential now
          Am                      C
Try but I can't put you down on my own
Like nicotine


e|--------------10-----------------------------------------------------------|
B|---12---------10----------10---------12----------8-------------------------|
G|---12----------------------9---------12----------7-------------------------|
D|---------------------------------------------------------------------------|
A|---------------------------------------------------------------------------|
E|---------------------------------------------------------------------------|

(Repeat that the whole Vers until the chords come up on the chorus)

(Vers)
Drowning myself in your chemicals
Feeling my heart intoxify
Lighting you up was so casual
Now I'm craving you all the time
(You're so addicting, you're so addicting)

Addicted to everything you represent
And when I'm feeling strung out, you're my supplement
Telling myself that I'm functional
But you have a high I can't deny
(You're so addicting, you're so addicting)

F                       G
I'm not giving up for nothing, no
                  Am                         C
They tell me I'm dead if I don't leave you alone
Like nicotine

instrumental: F - G - Am - C 

(after the instrumental part you play the tabs '" and sing then with the little part together)

e|---------------------------------------------------------------------------|
B|---12h12p13h12p12h13h12p12h13p12-------------------------------------------|
G|---------------------------------------------------------------------------|
D|---------------------------------------------------------------------------|
A|---------------------------------------------------------------------------|
E|---------------------------------------------------------------------------|

... like nicotine... yeah..yeah..ohhhhh.... ohh like nicotine!

F                       G
I'm not giving up for nothing, no
                  Am                         C
They tell me I'm dead if I don't leave you alone
Like nicotine

F                      G
We've got nothing but potential now
          Am                      C   
but I can't put you down on my own
Like nicotine

F   G       Am C
ohhhhhh uhhhhhhh.. like nicotine


F                      G
We've got nothing but potential now
          Am                      C   
but I can't put you down on my own
Like nicotine


************************************

| /   slide up
| \   slide down
| h   hammer-on
| p   pull-off
| ~   vibrato
| +   harmonic
| x   Mute note
| b   Bend
| pb  Pre-bend
| br  Bend release
| pbr Pre-bend release
| brb Bend release bend

************************************


Letra subida por: Anónimo

El acorde de Nicotine de Heffron Drive es una versión de la canción original realizada por colaboradores/usuarios de Coveralia.

¿Has encontrado algún error en esta página? Envíanos tu corrección del acorde