música
Buscador

Acorde de Perdóname - Gilberto Santa Rosa

Letra de Perdóname

El tono original es Gm asi que pueden usar Capo

en el espacio 3 y tocarla en Em. Aqui les presento una version

de Guitarra clasica para simular las trompetas de la introduccion.





1|--5^7^5---3-2----x----0-2-2^3^0--7------|

2|--------------3--0---0------------------|

3|-----------------0----------------------|

4|-----------------2----------------------|

5|-----------------2----------------------|

6|-0---------------0----------------------|











Em D A Em

Pido la paz para esta Guerra

D G C

Quisiera deponer mis armas

Am

parar con esta hostilidad

B7 Em

Que no conduce a nada

D A Em

Te propongo una tregua.

D A Em

Hago un llamado a tu conciencia

D G C

La mía ya me esta matando

B

Quien te esta hablando se rindió

B7 Am D A

perdió todas sus fuerzas y hoy viene suplicarte

B B7

Y a pedir perdón



Coro:

E Bm C#7

https://www.coveralia.com/acordes/perdoname-gilberto-santa-rosa.php

Hay perdóname, perdóname

F#m Am7 B7

No me hagas llorar no se como hablar

E Bm C#7

Hay perdóname, perdóname

F#m Am7

Que tengo que hacer

B7 Em

Si quieres me rindo a tus pies.



Interludio corto

Em D A

1|----3-3-3---2--5-2----0---|

2|----0-0-0---3-----3-3-2---|

3|----0-0-0---2-------0-0---|

4|------------0-------------|

5|--------------------0-----|

6|-0------------------------|





Em D A7 Em

Quiero que sepas que he cambiado

D G C

Que estar sin ti ha sido amargo

B

Por que me tuve que perder

B7 Em D

Y andar en malos pasos

A7

Y hoy que vuelvo a encontrarte

B B7

Quisiera volver



coro



En el Soneo se usanlos acordes del coro.



E-Bm-C#-F#m-Am7-B7

Letra subida por: Anónimo

El acorde de Perdóname de Gilberto Santa Rosa es una versión de la canción original realizada por colaboradores/usuarios de Coveralia.

¿Has encontrado algún error en esta página? Envíanos tu corrección del acorde