Quantcast
música
Buscador

Acorde de Primavera in Anticipo (It Is My Song) (Duet With James Blunt) - Laura Pausini

Letra de Primavera in Anticipo (It Is My Song) (Duet With James Blunt)

Tom: E

Intro: F#m A E B (2x)





E||---------------------------|---------------------------|-------------------------|-----------------------|

B||---------------------------|---------------------------|-------------------------|-----------------------|

G||-----11-------11--------|------9--------9---------|-----9--------9---------|-----8-------8-------|

D||---------11--------11---|--------11--------11---|---------9--------9-----|--------9--------9----|

A||---------------------------|---------------------------|-------------------------|-----------------------|

E||---------------------------|---------------------------|-------------------------|-----------------------|







E||---------------------------|---------------------------|-------------------------|------------------------|

B||---------------------------|---------------------------|-------------------------|------------------------|

G||-----11-------11--------|------9--------9---------|-----9--------9---------|-----8-------8--------|

D||---------11--------11---|--------11--------11---|---------9--------9-----|--------9--------9----|

A||---------------------------|---------------------------|-------------------------|------------------------|

E||---------------------------|---------------------------|-------------------------|------------------------|





F#m A E B

Per scontato non do

F#m A E B

Niente di quel che ho

F#m A E B F#m A E B

Neanche un minimo brivido, ora no



F#m A E B

It's the air that I breathe

F#m A E B

It's my fall at your feet

F#m A E B

It is my song

F#m A E B

I sing when you are gone



A E B F#m

Confesso sei la causa mia primaria

A E B

Adesso in me



Di tutto il buono che c'è.



F#m A E B

Ah ah ah ah ah ah lo so

F#m A E B

Sei la primavera in anti...cipo

F#m A E B

https://www.coveralia.com/acordes/primavera-in-anticipo--it-is-my-song---duet-with-james-blunt--laura-pausini.php

Ah ah ah ah ah ah la prova che

F#m A E

Dimostra quale effetto hai su me



Perché



F#m A E B F#m

All my hopes and my fears (my hopes my fears)

A E B

In this moment are clear

F#m A E B

You are the one

F#m A E B

My moon my stars my sun



A E B F#m

Per questo nei polmoni cambia l'aria

A E B

Del resto sei



Sei tutto il buono che c'è



F#m A E B

Ah ah ah ah ah ah lo so

F#m A E B

questa primavera è in anti...cipo

F#m A E B

Ah ah ah ah ah ah l'esempio che

F#m A E

dimostra quanto effetto hai su me



F#m A E B

Fiori che nascono dai rovi (ahhhh)

F#m A E B (F#m A E B) 2x

Qui fuori cicatrizzano gli errori miei (ahhhhhh...ahhhhhhh)



F#m A E B

Sei tu senz'alcun dubbio l'artefi ce

F#m A E F#m A E B

Di questa primavera che c'è... in me in me

F#m A E

Qui fuori



B F#m A E B

Ah ah ah ah ahhhhhh



F#m A E

Nell'autoscatto di noi

Discos en los que aparece este acorde: Primavera In Anticipo / Primavera Anticipada , Primavera In Anticipo

El acorde de Primavera in Anticipo (It Is My Song) (Duet With James Blunt) de Laura Pausini es una versión de la canción original realizada por colaboradores/usuarios de Coveralia.

¿Has encontrado algún error en esta página? Envíanos tu corrección del acorde