música
Buscador

Acorde de Santa Monica - Theory Of A Deadman

Letra de Santa Monica



harmonics are noted with ( ).



INTRO



Em

e|------------------0-0-0-|

B|--(12)------------0-0-0-|

G|------(12)---(7)--0-0-0-|

D|----------(7)-----2-2-2-|

A|------------------2-2-2-|

E|------------------0-0-0-|



G

e|------------------2-2-2-|

B|--(12)------------2-2-2-|

G|------(12)---(7)--0-0-0-|

D|----------(7)-----0-0-0-|

A|------------------2-2-2-|

E|------------------3-3-3-|



D

e|------------------2-2-2-|

B|--(12)------------3-3-3-|

G|------(12)---(7)--2-2-2-|

D|----------(7)-----0-0-0-|

A|------------------0-0-0-|

E|------------------x-x-x-|





C

e|------------------0-0-0-|

B|--(12)------------1-1-1-|

G|------(12)---(7)--0-0-0-|

D|----------(7)-----2-2-2-|

A|------------------3-3-3-|

E|------------------x-x-x-|













Em Bsus4 G

She fills my bed with gasoline

D C

You think I wouldn't notice

Em

Her mind's made up

Bsus4 G

Her love is gone

G D C

I think someone's trying to show us a sign

Em Bsus4 G

That even if we thought it would last

D C

The moment would pass

Em Bsus4 G

My bones will break and my heart would give

D C

Oh, it hurts to live



Em G D

And I remember the day when you left for Santa Monica

D C C

https://www.coveralia.com/acordes/santa-monica-theory-of-a-deadman.php

You left me to remain with all your excuses for everything

Em G D

And I remember the time when you left for Santa Monica

C

And I remember the day you told me it's over



*ONE SET OF HARMONICS PLAYED HERE*



Em Bsus4

It hurts to breathe

G D C

Well every time that you're not next to me

Em Bsus4

Her mind's made up

G

The girl is gone

D C Em

And now I'm forced to see

Bsus4 G

I think I'm on my way

D C Em

Oh, it hurts to live today

Bsus4 G D C

Oh and she says "Don't you wish you were dead like me?"

Em G D

And I remember the day when you left for Santa Monica

C C

You left me to remain with all your excuses for everything

Em G D

And I remember the time when you left for Santa Monica

D C

And I remember the day you told me it's over



Em G D C

I wanted more than this

Em G D C

I needed more than this

Em G D C

I deserve more than this

Em G

But it just won't stop

D C

It just won't go away



Em G D C

I needed more than this

Em G D C

I wanted more than this

Em G D C

I asked for more than this

Em G

But it just won't stop

D C

It just won't go away



And I remember the day when you left for Santa Monica

You left me to remain with all your excuses for everything

And I remember the day when you left for Santa Monica

And I remember the day you told me it's over

You left me to remain with all your excuses for everything

And I remember the time when you left for Santa Monica

Yeah, I remember the day you told me it's over



Letra subida por: Anónimo

Discos en los que aparece este acorde: Gasoline , Angel (Acoustic) (Ep)

El acorde de Santa Monica de Theory Of A Deadman es una versión de la canción original realizada por colaboradores/usuarios de Coveralia.

¿Has encontrado algún error en esta página? Envíanos tu corrección del acorde