música
Buscador

Acorde de Se Esta Volviendo Loco - Elsa Garcia

Letra de Se Esta Volviendo Loco

INTRO:

D E7 F#7

E -5-5-5-5---5---5---5--------7-7-----7-7-----7-7-----------

B -7-7-7-7-7-7-7-7-7-7-9-7-9--9-9-9-9-9-9-9-9-9-9-11-11-----

G ---------7---7---7---9-7-9------9-9-----9-9-----11-11-----

D ----------------------------------------------------------

A ----------------------------------------------------------

E ----------------------------------------------------------

E7 A

E --------------------------------9-10-9--------------------

B -7-7-7---7-9-9-9---9-5-5-5---5---------12-10-9-10---------

G -7-7-7-7-7-9-9-9-9-9-6-6-6-6-6----------------------------

D -------9---------9---------7------------------------------

A ----------------------------------------------------------

E ----------------------------------------------------------



E° Bm

Se está volviendo loco el corazón

E7 A F#7

el corazón que está dentro de mi

Bm

se está volviendo loco

E7 A

pierde todo su ritmo cuando está junto a tí.



E° Bm

Se está volviendo loco el corazón

E7 A F#7

y ya no me obedece es por demás

Bm

se esta volviendo loco

E7 A D A

https://www.coveralia.com/acordes/se-esta-volviendo-loco-elsa-garcia.php

se declara en peligro de morir si no estás.



D E7 A G F#7

Y sabe que lo nuestro no podrá ser jamás

Bm

se esta volviendo loco

E7 A D A

yo le digo que no y el te ama más.



REQUINTO

A Bm E7 A F#7

E -9-10-12-10-9-9------------------9-10-9------------------------

B ----------------12-12-11-12---12--------12-12-10-10-11-9-------

G ---------------------------------------------------------------

D ---------------------------------------------------------------

A ---------------------------------------------------------------

E ---------------------------------------------------------------

Bm E7 A

E ----9-10-9------------9-10-9---------9-10-9--------------------

B -12--------12-12---12--------12-9-12--------12-9-10------------

G ----------------------------------------------------9-11-9-----

D ---------------------------------------------------------------

A ---------------------------------------------------------------

E ---------------------------------------------------------------



(SE REPITEN LAS ESTROFAS 2 Y 3)



F#7 Bm

Se esta volviendo loco

E7 A Dm/F A

vete, vete mejor para que muera en paz.

Discos en los que aparece este acorde: Ni Mas, Ni Menos , Serie Verde , Imprescindibles

El acorde de Se Esta Volviendo Loco de Elsa Garcia es una versión de la canción original realizada por colaboradores/usuarios de Coveralia.

¿Has encontrado algún error en esta página? Envíanos tu corrección del acorde