música
Buscador

Acorde de She Will Be Loved - Maroon 5

Letra de She Will Be Loved

Tocado durante a música: 



E|--------------------3--------------|

B|---4-4-4----3-3-?-3s4--------------|

G|----------------3?--??-------------|

D|-----------------3-----------------|

A|-3-3-3-3--1-1-1--------------------|

E|-----------------------------------|



E|----------------------------------|

B|---4-4-4----3-3-?-3---------------|

G|----------------3?--??------------|

D|-----------------3----------------|

A|-3-3-3-3--1-1-1-----3-------------|

E|----------------------------------|



Refrão



D# A#

I don´t mind spending everyday

https://www.coveralia.com/acordes/she-will-be-loved-maroon-5.php

Cm Ab

Out on your corner in the pouring rain

Look for the girl with the broken smile

Ask her if she wants to stay awhile

And she will be loved

She will be loved

Cm Dm

I know where you hide

D#

Alone in your car

A# Cm

Know all of the things that make you who you are

Dm D#

I know that goodbye means nothing at all

Dm D#

Comes back and begs me to catch her every time she falls





Letra subida por: Anónimo

El acorde de She Will Be Loved de Maroon 5 es una versión de la canción original realizada por colaboradores/usuarios de Coveralia.

¿Has encontrado algún error en esta página? Envíanos tu corrección del acorde