música
Buscador

Acorde de Te Quiero Más (Feat. Nacho) - Tini

Letra de Te Quiero Más (Feat. Nacho)

(feat. Nacho)



¡Con Capo en el 2do traste!



ESTROFA I:

D



Bm

Llegaste de repente así eres tú

G

No te importó la gente y fuimos dos

A D A

Sólo escuché tu voz, así siempre eres tú Uoh...





ESTROFA II:

D

Y así soy yo Uoh, uoh...

Bm

Y aunque fue pronto para hablar de amor

G

Lo siento, pero no pude esconder

A D A

Lo que es tan fácil ver, así siempre fui yo Uoh...





CORO:

D

Me diste un beso y ay ay ay

Bm

Y te confieso que ay ay ay

G A

Tan solo en un segundo me devolviste el mundo

D A

Por eso quiero más (te quiero más, te quiero más)



D

Con tu mirada ay ay ay (Ay, con tu mirada)

Bm

Sin decir nada ay ay ay (Ay, sin decir nada)

G A

Me dejaste callada, perdida, enamorada

D A

Por eso quiero más (te quiero más, te quiero más)





NACHO:

D

Dame de ese aroma en tu piel



Deja que me endulce los labios

Bm

Despacio me pierda en tus besos de miel



Sedúceme

G

Quítale las riendas al corcel del deseo y seré fiel

A D

Las ganas de entregarme a tu ser y te haré mi mujer

A

Muchas veces te haré mi mujer



D

Ay desde que te vi me invade una gran sensación

https://www.coveralia.com/acordes/te-quiero-mas--feat--nacho--tini.php

Bm

Fue como una extraña emoción

G

Como mariposas que buscaban flores de color en mi corazón

A

Fue como una lluvia de amor

D

Nada acortará una ilusión

A

Y en tus aguas perdí la razón





-CORO-



D

Ay desde que te vi (vi, vi, vi)

Te quiero más, te quiero más

Bm

Ay desde que te vi (vi, vi, vi)

Te quiero más, te quiero más

G A

Tan solo en un segundo me devolviste el mundo

D A

Por eso quiero más (te quiero más, te quiero más)



-ESTROFA I, CORO-







Arpegio base de toda la canción (Recordar, Capo 2do Traste):



D

E|----------------------------|

B|----------------------------|

G|-----2----------2-----------|

D|-4-----4----4-----2---2-4---|

A|---5-----5----5-----5-----5-|

e|----------------------------|



Bm

E|----------------------------|

B|----------------------------|

G|----------------------------|

D|-----4----------4-----------|

A|-2-----2----2-----2---2---0-|

e|---2-----2----2-----2---2---|



G A

E|----------------------------|

B|----------------------------|

G|----------------------------|

D|-----5----------7-------7---|

A|-5-----5----7-----7-7-----7-|

e|---3-----3----5-------5-----|



D A

E|----------------------------|

B|----------------5-----------|

G|-----2------6-----6---------|

D|-4-----4------7-----7-------|

A|---5-----5------------------|

e|----------------------------|

Letra subida por: Anónimo

Discos en los que aparece este acorde: Te Quiero Mas (Featuring Nacho) (Cd Single) , Quiero Volver

El acorde de Te Quiero Más (Feat. Nacho) de Tini es una versión de la canción original realizada por colaboradores/usuarios de Coveralia.

¿Has encontrado algún error en esta página? Envíanos tu corrección del acorde