música
Buscador

Acorde de The Judge's Daughter - Green Day

Letra de The Judge's Daughter



G5: F5: C5: D5:

e------| e------| e------| e------|

B------| B------| B------| B------|

G------| G------| G--5---| G--7---|

D--5---| D--3---| D--5---| D--7---|

A--5---| A--3---| A-3----| A-5----|

E-3----| E-1----| E------| E------|



No intro, it just goes right into the verse.





VERSE (the same chords the hole way through the verse):

G5 F5 C5 G5

Princess in a school girls dream, may I please speak with you?

I'm having troubles with control and it's all because of you.

Today i kept on falling down, i thought i was the street.

And then i looked down at my shoes, they were on the wrong feet..



Slide in to CHORUS1:

C5 D5

And i find it hard to be myself

G5 F5 G5 (From F5 to G5 again it should go fast!)

Can you please explaine?

C5 D5

And i do not think that it's my health

G5 F5 G5

You're the one to blame

C5 D5

You're the one i wish i had

C5 D5

And now my girlfriend's gettin' mad.

G5 F5 G5

I cannot call this sane

G5 F5 G5

Cannot call this sane.



Chords between CHORUS and VERSE:

G5 F5 C5 G5 x2



VERSE:

G5 F5 C5 G5

Today, as I was walking down, you bumped into me.

You said excuse me, but walked away as i dropped on my kneees.

I prayed to being in the sky, that my parents told me of.

A asked about you, but no reply, no clues about your love.



Slide in to CHORUS2:

C5 D5

And i find it hard to be myself

G5 F5 G5 (From F5 to G5 again it should go fast!)

Can you please explaine?

C5 D5

And i do not think that it's my health

G5 F5 G5

You're the one to blame

C5 D5

My girlfriend left me on the phone

C5 D5

I'm patheticly left here alone

G5 F5 G5

I cannot call this sane

G5 F5 G5

Cannot call this sane.

https://www.coveralia.com/acordes/the-judge-s-daughter-green-day.php



INTERLUDE:

G5 F5 G5 !break!

Can we find a way,

G5 F5 G5 !break!

So that you can stay?

G5 F5 G5 !break!

I think I'm gonna pop

G5 F5 G5 !break!.



Guitar solo:



If you don't wish to play the solo, play the chords of the solo, that goes:

G5 F5 C5 G5 (same as verse)



SOLO:

e-----3-----3-----------------------------------------------------------|

B---3-----3-------------------------------------------------------------|

G-5-----5-----5--3slide2----2slide3---2------------------------3-0------|

D-------------------------3--------------3--0--------3-5-5-5-5-----5----|..

A-------------------------------------------0--3-5-5--------------------|

E-----------------------------------------------------------------------|



e---------------3-3---3-3--3----6-3-------------------------------------|

B---------------3-3---3-3-3---------6-3-6--6-6-3------------------------|

G-3-5-3-5---(5)-----5----------------------------5--(5)slide3---3-5-5-3-|

D-----------------------------------------------------------------------|

A-----------------------------------------------------------------------|

E-----------------------------------------------------------------------|



Rest of it is 'UNKNOWN' as the book describes it...



And then CHORUS1:



C5 D5

And i find it hard to be myself

G5 F5 G5 (From F5 to G5 again it should go fast!)

Can you please explaine?

C5 D5

And i do not think that it's my health

G5 F5 G5

You're the one to blame

C5 D5

You're the one i wish i had

C5 D5

And now my girlfriend's gettin' mad.

G5 F5 G5

I cannot call this sane

G5 F5 G5

Cannot call this sane.



And INTERLUDE:

G5 F5 G5 !break!

Can we find a way,

G5 F5 G5 !break!

So that you can stay?

G5 F5 G5 !break!

I think I'm gonna pop

G5 F5 G5 !break!.



Ends on G...





Letra subida por: Anónimo

El acorde de The Judge's Daughter de Green Day es una versión de la canción original realizada por colaboradores/usuarios de Coveralia.

¿Has encontrado algún error en esta página? Envíanos tu corrección del acorde