Quantcast
música
Buscador

Acorde de The Kiss Of Venus - Paul Mccartney

Letra de The Kiss Of Venus

Clave: E



[Intro]

E A E

e|---0-2-3-4---|---------0--2-0-|-----0-0--0-0-0-|

B|-----------0-|-2-0-1-2--------|---0-0-0--0-0-0-|

G|-------------|-2--------------|-----1-1--1-1-1-|

D|-------------|-2--------------|-----2-2--2-2-2-|

A|-------------|-0--------------|-----2-2--2-2-2-|

E|-0-----------|----------------|-0---0-0--0-0-0-|

D U U D U



[Verso 1]

E A

The kiss of Venus has got me on the go

E Bm A

She's scored a bullseye in the early morning glow

E

Early morning glow





[Verso 2]

E A

Packed with illusions, our world is turned around

E Bm A

This golden circle has a most harmonic sound

E

Harmonic sound





[Coro]

Am E

And in the sunshine where we stand alone

Am C#m

We came together with our secrets blown

B

Our secrets blown



e|----0-----0-----0----0-|

B|-4-----2-----0---------|

G|-------------------2---|

D|-----------------------|

A|-2-----0---------------|

E|-------------4-----2---|





[Verso 3]

E A

Now moving slowly, we circle through the square

E Bm

Two passing planets in the sweet, sweet summer air

A E

Sweet summer air





[Coro]

Am E

And in the sunshine where we stand alone

Am C#m

We came together with our secrets blown

B

Our secrets blown



B A G#m7 F#m7

e|---------|-------------|---------|---------|

https://www.coveralia.com/acordes/the-kiss-of-venus-paul-mccartney.php

B|-----7---|-----5-------|-----4-5-|-----2---|

G|---8---9-|-------------|---4-----|---2---4-|

D|---------|---6---------|---------|---------|

A|---------|-------------|---------|---------|

E|-7-------|-5-----------|-4-------|-2-------|





[Puente]

G D

Reflected mountains in the lake

Am

Is this too much to take?

E

Asleep or wide awake?

G D

And if the world begins to shake

Am

Would something have to break?

E

We have to stay awake





[Verso 4]

E A

Packed with illusions, our world is turned around

E Bm A

This golden circle has a most harmonic sound

E

Harmonic sound





[Coro]

Am E

And in the sunshine where we stand alone

Am C#m

We came together with our secrets blown

B

Our secrets blown



e|----0-----0-----0----0-|

B|-4-----2-----0---------|

G|-------------------2---|

D|-----------------------|

A|-2-----0---------------|

E|-------------4-----2---|





[Instrumental]

G D Am E x2





[Verso]

E A

The kiss of Venus has got me on the go

E Bm

She's scored a bullseye in the early morning glow

A (E)

Early morning glow





[Outro]

A E

The kiss of Venus has got me on the go

Discos en los que aparece este acorde: Mccartney III

El acorde de The Kiss Of Venus de Paul Mccartney es una versión de la canción original realizada por colaboradores/usuarios de Coveralia.

¿Has encontrado algún error en esta página? Envíanos tu corrección del acorde