música
Buscador

Acorde de The Ocean (Feat. Shy Martin) - Mike Perry

Letra de The Ocean (Feat. Shy Martin)

e|-8--------------------8----------------8-------------------8--------------------------------------------

B|---8-6-6-8^10^8-6------8-6-8-8---8-6-----8-6-6-8^10^8-6-------8-6-5-5---5-6-----------------------------

G|------------------5------------5------------------------5-------------5--------------------------------- x 2

D|--------------------------------------------------------------------------------------------------------

A|--------------------------------------------------------------------------------------------------------

E|--------------------------------------------------------------------------------------------------------



e|-18-------------------------18---------------------18-------------------------18-----------------------

B|---18-16-16-18^20^18-16-------18-16-18-18----18-16----18-16-16-18^20^18-16-------18-16-15-15---15-16---

G|------------------------15----------------15-------------------------------15----------------15--------

D|-------------------------------------------------------------------------------------------------------

A|-------------------------------------------------------------------------------------------------------

E|-------------------------------------------------------------------------------------------------------



[Intro]

Dm Bb F C

Dm Bb F C





[Verse 1]

C Dm Bb F

You can be my guiding light

C

Keep me

Dm Bb F C

Company in the night

Dm

That's all I need

Bb

All I want

F C

Is for you to stay a little longer now

Dm Bb F C Dm

With arms around me like a border

Bb F

Like the air I breathe

C

I let you in

Dm Bb F

Keep me warm underneath my skin





[Pre-chorus]

C

'Cause I'm

Dm

Giving in

Bb

To your touch

F C

I can never get enough

Dm Bb F C

Dive in deep into the ocean

https://www.coveralia.com/acordes/the-ocean--feat--shy-martin--mike-perry.php





[Chorus]

Dm Bb F C Dm Bb F C

Ocean

Dm Bb F C Dm Bb F C

Ocean

Dm Bb F C Dm Bb F C

Ocean





[Verse 2]

Dm Bb F

You can be my safety zone

C

Somewhere

Dm Bb F C

I can go and feel unknown

Dm

That's all I need

Bb

All I want

F C

Is to stay a little longer now

Dm Bb F C Dm

Arms around me like a border

Bb F

Like an endless stream

C

You take me in

Dm Bb F

To a place that I've never been





[Pre-chorus]

C

Now I'm

Dm Bb

Giving in to your touch

F C

I will never get enough

Dm Bb F C

Dive in deep into the ocean





[Chorus]

Dm Bb F C Dm Bb F C

Ocean

Dm Bb F C Dm Bb F C

Ocean

Dm Bb F C Dm Bb F C

Ocean

Letra subida por: Anónimo

Discos en los que aparece este acorde: The Ocean (Featuring Shy Martin) (Cd Single)

El acorde de The Ocean (Feat. Shy Martin) de Mike Perry es una versión de la canción original realizada por colaboradores/usuarios de Coveralia.

¿Has encontrado algún error en esta página? Envíanos tu corrección del acorde