música
Buscador

Acorde de Tren Al Sur - Los Prisioneros

Letra de Tren Al Sur

Introduccion: Am F Am F (4 Veces)

A)

Am F

Siete y media en la mañana

Am F

Mi asiento toca la ventana

Am F

Estación central Segundo Carro

Am F Puente 1 (2 veces)

Del Ferrocarril que me llevara al Sur.



Riff 1: Am F Am F



(Como verso A)



Y ya estos fierros van andando

Mi corazón está saltando

porque me llevan a las tierras

donde al fin podre de nuevo



(Solo Batería)

Am

Respirar adentro y hondo

alegrias del corazón.

introduccion (2 veces)

Ahhh...



Coro:

G CM

Y no me digas pobre

Em G

Por ir viajando así

FM CM

no ves que estoy contento

Em Gm

no ves que voy feliz



Intoduccion (2 veces)



(Como Verso A)



Doce y media en la mañana

el olor se mete en la ventana

Son flores y mil animales

Puente 1 (1 vez)

que me dicen bienvenido al Sur



(Como verso A)



Yo recuerdo a mi papito

y no me importa estar solito

porque me llevan a las tierras

donde al fin podre de nuevo



(Solo Bateria)

Am

Respirar adentro y hondo

Alegrias del corazón

respirar adentro y hondo

alegrias del corazón



Coro:

https://www.coveralia.com/acordes/tren-al-sur-los-prisioneros.php

y no me digas pobre

Por ir viajando así

no ves que estoy contento

no ves que voy feliz

vajando en este tren

en este tren al sur



Solo:



e----------------------------

B--9-6-9-6-9-6-9-6-9-6-9~-6~-

G----------------------------

D---------------------------- (2 veces)

A----------------------------

B----------------------------



e--4h6-6-6-4-3-4-

B----------------

G----------------

D---------------- (4 veces)

A----------------

E----------------



e--8-8--8-9-8-6-

B---------------

G---------------

A--------------- (2 veces)

D---------------

E---------------



e-11-4-3-4-

B----------

G----------

D---------- (2 veces)

A----------

E----------



e--13-4-3-4-13-15-15/--

B----------------------

G----------------------

D----------------------

A----------------------

E----------------------



coro:



Y no me digas pobre



por ir viajando así

no ves que estoy contento

no ves que voy feliz

Viajando en este tren

en este tren al sur



Introducción: (4 veces)



(Solo voz)

Tren al Sur (4 veces)

(Con introducción)

Tren al sur (12 veces)



El acorde de Tren Al Sur de Los Prisioneros es una versión de la canción original realizada por colaboradores/usuarios de Coveralia.

¿Has encontrado algún error en esta página? Envíanos tu corrección del acorde