música
Buscador

Acorde de Untouched - The Veronicas

Letra de Untouched

Intro: 

D F#m E D x2

D F#m E D A/C# Bm A



Violin:

D F#m E D

e|-4-4-4-4-5-|-4-4-4-4-5-|-5-5-5-5-4-|-4-4-4-4-2-|

B|-----------|-----------|-----------|-----------|

G|-----------|-----------|-----------|-----------|

D|-----------|-----------|-----------|-----------| x2

A|-----------|-----------|-----------|-----------|

D|-----------|-----------|-----------|-----------|



Guitar 2:

e|-----4---5---4-----5-|

B|---5---5---5-----5---|

G|-6-------------6-----|

D|---------------------| x8

A|---------------------|

D|---------------------|



Verse 1:

Bm

I go ooh ooh you go ah ah

A

lalalalalalalala

E

I keep lalalalalalalala

D

I wanna wanna wanna get get

get what I want Don't stop

Bm

Give me give me give

me what you got got

A

Cause I can't wait wait

wait any more more more more

E

Don't even talk

about the consequence

D

Cause right now you're the only

thing that's making any sense to me

D

And I don't give a damn what

they say what they think think

F#m

Cause you're the only

one who's on my mind

E

I'll never ever let you leave me

I'll try to stop time for ever

D A/C# Bm A

never wanna hear you say goodbye

(bye bye bye)



Chorus 1:

D

I feel so untouched

A

And I want you so much

E

That I just can't resist you

D

It's not enough to

say that I miss you

D

I feel so untouched

A

right now Need you

E

so much somehow

I can't forget you

D

Go crazy from the

moment I met you



Bass Line: In Chorus x2

D A

G|---------14----13----14--14--13-|---------14----13----14--14--13-|

D|-------------0-----0------------|--------------------------------|

A|--------------------------------|-0-0-0-0-----0-----0------------|

D|-0-0-0-0------------------------|--------------------------------|



E D

G|---------4----4----6--6--4-|---------2----1----4--4--2-|

D|------------2--------------|------------0----0---------|

https://www.coveralia.com/acordes/untouched-the-veronicas.php

A|-----------------7---------|---------------------------|

D|-2-2-2-2-------------------|-0-0-0-0-------------------|



Post Chorus: D F#m



E

Untouched un

D

And I need you so much



Verse 2:

Bm

See you, breathe you

I want to be you

A

Alalalala alalalala

E

You can take take take

take take time time

D

To live live the way you

gotta gotta live your life

Bm

Give me give me give me all

of you you Don't be scared

A

I'll see you through the

loneliness of one more more more

E

Don't even think about what's

right or wrong, wrong or right



Cause in the end it's only you and

me and no one else is gonna be around



To answer all the questions left behind



And you and I are meant to be so

even if the world falls down today

E

You've still got me to hold you up up

D

And I will never let you down (down)



(Repeat Chorus 1)



Post Chorus 2:

D F#m

Untouched un untouched

E D A/C# Bm A

untouched un un---touched

D F#m

Untouched un lalalalalalalala

E D A/C# Bm A

untouched un lalalalalalalala



Chorus 2:

Bm

I feel so untouched

F#m

And I want you so much

E

That I just can't resist you

D

It's not enough to

say that I miss you

Bm

I feel so untouched

F#

right now Need you

E

so much somehow

I can't forget you

D

Go crazy from the

moment I met you

(Repeat Chorus 1)



Interlude: D A E D x2



Outro:

D F#m

Untouched un untouched

E D A/C# Bm A

untouched un un---touched

Letra subida por: Anónimo

El acorde de Untouched de The Veronicas es una versión de la canción original realizada por colaboradores/usuarios de Coveralia.

¿Has encontrado algún error en esta página? Envíanos tu corrección del acorde