música
Buscador

Acorde de You're Beautiful - James Blunt

Letra de You're Beautiful

CAPO: 3ª casa (versão sem capo ao final)   

CAPO: 3rd fret (version without capo at the end)

Intro: C C/B Am F x3

e|------------------------------|------------------------------|

B|---1-0-1----1-0-1-3--1-0-1----|---1-0-1----1-0-1-3--1-0-1----|

G|------------------------------|------------------------------|

D|-2--------2----------------2-3|-2--------2----------------2-3|

A|------------------------------|------------------------------|

E|------------------------------|------------------------------|





My life is brilliant







C

My life is brilliant

G/B

My love is pure

Am

I saw an angel

F

Of that I'm sure

C

She smiled at me on the subway

G/B

She was with another man

Am

But I won't lose no sleep on that



'Cause I've got a plan





F G

You're beautiful

C

You're beautiful

F G C

You're beautiful, it's true

F G

I saw your face

C G/B Am

In a crowded place

F G Am

And I don't know what to do

F G C

'Cause I'll never be with you



ocultar esta pestaña C G Am F

e|-------------------------------|

B|---1-0-1----1-0-1-3--1-0-1-----|

G|-------------------------------|

D|-2--------2-----------------2-3|

A|-------------------------------|

E|-------------------------------|



C

Yes, she caught my eye

G/B

As we walked on by

Am

She could see from my face that I was

F

Fucking high

C G/B

And I don't think that I'll see her again

Am

But we shared a moment that will last to the end





F G

You're beautiful

C

You're beautiful

F G C

You're beautiful, it's true

F G

I saw your face

C G Am

In a crowded place

F G Am

And I don't know what to do

F G C

'Cause I'll never be with you





F Am F Am F Am D G

La la la la, la la la la, la la la la, la





F G

You're beautiful

C

You're beautiful

F G C

You're beautiful, it's true

F G

There must be an angel

C G/B Am

With a smile on her face

F G C G/B Am

When she thought up that I should be with you

F G Am

But it's time to face the truth

F G C

I will never be with you









--------------------------------------------------------------------------------------------------

SEM CAPO

--------------------------------------------------------------------------------------------------



Intro Eb Bb Cm G# x3

https://www.coveralia.com/acordes/you-re-beautiful-james-blunt.php



e|------------------------------|------------------------------|

B|---4-3-4----4-3-4-6--4-3-4----|---4-3-4----4-3-4-6--4-3-4----|

G|-3--------3----------------0-1|-3--------3----------------0-1|

D|------------------------------|------------------------------|

A|------------------------------|------------------------------|

E|------------------------------|------------------------------|







Eb

My life is brilliant

Bb

My love is pure

Cm

I saw an angel

Ab

Of that I'm sure

Eb

She smiled at me on the subway

Bb

She was with another man

Cm

But I won't lose no sleep on that

Ab

'Cause I've got a plan



Ab Bb Cm

You're beautiful You're beautiful



Ab Bb Cm

You're beautiful (Is True ...)

Ab Bb Cm

I saw your face

Ab Bb Cm

In a crowded place

Ab Bb Cm

And I don't know what to do



Ab Bb Cm

You're beautiful You're beautiful

Ab Bb Cm

You're beautiful (Is True ...)



Ab Bb Cm

But I can't scape the truth

Ab Bb Cm

I'll never be with you







Eb Bb Cm Ab :

e|------------------------------|

B|---4-3-4----4-3-4-6--4-3-4----|

G|-3--------3----------------0-1|

D|------------------------------|

A|------------------------------|

E|------------------------------|



Eb

Yes, she caught my eye

Bb

As we walked on by

Cm

She could see from my face that I was

Ab

Flying high

Eb Bb

And I don't think that I'll see her again

Cm

But we shared a moment that will last to the end



Ab Bb Eb

You're beautiful

Eb

You're beautiful (Is True...)

Ab

I saw your face

Bb

In a crowded place

Eb Bb/D Cm

And I don't know what to do



Ab Bb Eb

You're beautiful

Bb/D Cm

You're beautiful

Ab Bb Cm

But I can't scape the truth

Ab Bb Eb

I'll never be with you







Ab Cm Ab Cm Ab Cm Bb

La la la la, la la la la, la la la la, la



Ab Bb Cm

You're beautiful

Ab Bb Cm

You're beautiful

Ab Bb Cm

You're beautiful it's true

Ab Bb Cm

There must be an angel

Ab Bb Cm

With a smile on her face

Ab Bb Cm

When she thought up that I should be with you

Ab Bb Cm

But it's time to face the truth

Ab Bb Cm

I will never be with you

Letra subida por: Anónimo

El acorde de You're Beautiful de James Blunt es una versión de la canción original realizada por colaboradores/usuarios de Coveralia.

¿Has encontrado algún error en esta página? Envíanos tu corrección del acorde